0
SECTION
2
HEADER
9
$INSUNITS
70
4
9
$ACADVER
1
AC1014
9
$HANDSEED
5
FFFF
0
ENDSEC
0
SECTION
2
TABLES
0
TABLE
2
VPORT
5
8
100
AcDbSymbolTable
0
ENDTAB
0
TABLE
2
LTYPE
5
5
100
AcDbSymbolTable
0
LTYPE
5
14
100
AcDbSymbolTableRecord
100
AcDbLinetypeTableRecord
2
BYBLOCK
70
0
0
LTYPE
5
15
100
AcDbSymbolTableRecord
100
AcDbLinetypeTableRecord
2
BYLAYER
70
0
0
ENDTAB
0
TABLE
2
LAYER
5
2
100
AcDbSymbolTable
70
2
0
LAYER
5
50
100
AcDbSymbolTableRecord
100
AcDbLayerTableRecord
2
0
70
0
6
CONTINUOUS
0
ENDTAB
0
TABLE
2
STYLE
5
3
100
AcDbSymbolTable
70
1
0
STYLE
5
11
100
AcDbSymbolTableRecord
100
AcDbTextStyleTableRecord
2
STANDARD
70
0
0
ENDTAB
0
TABLE
2
VIEW
5
6
100
AcDbSymbolTable
70
0
0
ENDTAB
0
TABLE
2
UCS
5
7
100
AcDbSymbolTable
70
0
0
ENDTAB
0
TABLE
2
APPID
5
9
100
AcDbSymbolTable
70
2
0
APPID
5
12
100
AcDbSymbolTableRecord
100
AcDbRegAppTableRecord
2
ACAD
70
0
0
ENDTAB
0
TABLE
2
DIMSTYLE
5
A
100
AcDbSymbolTable
70
1
0
ENDTAB
0
TABLE
2
BLOCK_RECORD
5
1
100
AcDbSymbolTable
70
1
0
BLOCK_RECORD
5
1F
100
AcDbSymbolTableRecord
100
AcDbBlockTableRecord
2
*MODEL_SPACE
0
BLOCK_RECORD
5
1B
100
AcDbSymbolTableRecord
100
AcDbBlockTableRecord
2
*PAPER_SPACE
0
ENDTAB
0
ENDSEC
0
SECTION
2
BLOCKS
0
BLOCK
5
20
100
AcDbEntity
100
AcDbBlockBegin
2
*MODEL_SPACE
0
ENDBLK
5
21
100
AcDbEntity
100
AcDbBlockEnd
0
BLOCK
5
1C
100
AcDbEntity
100
AcDbBlockBegin
2
*PAPER_SPACE
0
ENDBLK
5
1D
100
AcDbEntity
100
AcDbBlockEnd
0
ENDSEC
0
SECTION
2
ENTITIES
0
LINE
5
100
100
AcDbEntity
8
0
100
AcDbLine
10
356.58213579150629
20
4.434717956860581
30
0
11
368.13578330714705
21
66.772621553530556
31
0
0
LINE
5
101
100
AcDbEntity
8
0
100
AcDbLine
10
429.13214992277949
20
4.4347179568606521
30
0
11
444.87270561291984
21
9.5491345302382058
31
0
0
LINE
5
102
100
AcDbEntity
8
0
100
AcDbLine
10
429.13214992277949
20
4.4347179568606521
30
0
11
417.57850240713867
21
66.772621553530556
31
0
0
LINE
5
103
100
AcDbEntity
8
0
100
AcDbLine
10
444.87270561291984
20
9.5491345302382058
30
0
11
417.57850240713867
21
66.772621553530556
31
0
0
LINE
5
104
100
AcDbEntity
8
0
100
AcDbLine
10
503.56689998726256
20
52.192962890211092
30
0
11
513.29509840557978
21
65.582679311939273
31
0
0
LINE
5
105
100
AcDbEntity
8
0
100
AcDbLine
10
513.29509840557978
20
65.582679311939273
30
0
11
457.57850240713867
21
95.834322673744978
31
0
0
LINE
5
106
100
AcDbEntity
8
0
100
AcDbLine
10
503.56689998726256
20
52.192962890211092
30
0
11
457.57850240713867
21
95.834322673744978
31
0
0
LINE
5
107
100
AcDbEntity
8
0
100
AcDbLine
10
272.41918730870594
20
65.582679311939316
30
0
11
328.13578330714705
21
95.834322673745049
31
0
0
LINE
5
108
100
AcDbEntity
8
0
100
AcDbLine
10
282.14738572702322
20
52.192962890211092
30
0
11
328.13578330714705
21
95.834322673745049
31
0
0
LINE
5
109
100
AcDbEntity
8
0
100
AcDbLine
10
340.84158010136593
20
9.5491345302381347
30
0
11
356.58213579150629
21
4.434717956860581
31
0
0
LINE
5
110
100
AcDbEntity
8
0
100
AcDbLine
10
340.84158010136593
20
9.5491345302381347
30
0
11
368.13578330714705
21
66.772621553530556
31
0
0
LINE
5
111
100
AcDbEntity
8
0
100
AcDbLine
10
272.41918730870594
20
65.582679311939316
30
0
11
282.14738572702322
21
52.192962890211092
31
0
0
LINE
5
112
100
AcDbEntity
8
0
100
AcDbLine
10
249.99999999999986
20
151.13244270549345
30
0
11
312.85714285714283
21
142.85714285714283
31
0
0
LINE
5
113
100
AcDbEntity
8
0
100
AcDbLine
10
249.99999999999986
20
134.58184300879219
30
0
11
312.85714285714283
21
142.85714285714283
31
0
0
LINE
5
114
100
AcDbEntity
8
0
100
AcDbLine
10
249.99999999999986
20
151.13244270549345
30
0
11
249.99999999999986
21
134.58184300879219
31
0
0
LINE
5
115
100
AcDbEntity
8
0
100
AcDbLine
10
272.41918730870589
20
220.13160640234639
30
0
11
328.13578330714705
21
189.87996304054064
31
0
0
LINE
5
116
100
AcDbEntity
8
0
100
AcDbLine
10
340.84158010136576
20
276.16515118404755
30
0
11
368.13578330714699
21
218.94166416075512
31
0
0
LINE
5
117
100
AcDbEntity
8
0
100
AcDbLine
10
503.56689998726245
20
233.52132282407462
30
0
11
457.57850240713856
21
189.87996304054064
31
0
0
LINE
5
118
100
AcDbEntity
8
0
100
AcDbLine
10
282.14738572702316
20
233.52132282407453
30
0
11
272.41918730870589
21
220.13160640234639
31
0
0
LINE
5
119
100
AcDbEntity
8
0
100
AcDbLine
10
513.29509840557978
20
220.13160640234645
30
0
11
503.56689998726245
21
233.52132282407462
31
0
0
LINE
5
120
100
AcDbEntity
8
0
100
AcDbLine
10
535.71428571428578
20
151.13244270549353
30
0
11
472.85714285714283
21
142.85714285714283
31
0
0
LINE
5
121
100
AcDbEntity
8
0
100
AcDbLine
10
535.71428571428578
20
134.58184300879225
30
0
11
535.71428571428578
21
151.13244270549353
31
0
0
LINE
5
122
100
AcDbEntity
8
0
100
AcDbLine
10
535.71428571428578
20
134.58184300879225
30
0
11
472.85714285714283
21
142.85714285714283
31
0
0
LINE
5
123
100
AcDbEntity
8
0
100
AcDbLine
10
429.13214992277943
20
281.27956775742513
30
0
11
417.57850240713867
21
218.94166416075512
31
0
0
CIRCLE
5
124
100
AcDbEntity
8
0
100
AcDbCircle
10
392.85714285714283
20
142.85714285714283
30
0
40
142.85714285714283
0
LINE
5
125
100
AcDbEntity
8
0
100
AcDbLine
10
356.58213579150612
20
281.27956775742513
30
0
11
340.84158010136576
21
276.16515118404755
31
0
0
LINE
5
126
100
AcDbEntity
8
0
100
AcDbLine
10
444.87270561291979
20
276.16515118404755
30
0
11
429.13214992277943
21
281.27956775742513
31
0
0
LINE
5
127
100
AcDbEntity
8
0
100
AcDbLine
10
444.87270561291979
20
276.16515118404755
30
0
11
417.57850240713867
21
218.94166416075512
31
0
0
LINE
5
128
100
AcDbEntity
8
0
100
AcDbLine
10
513.29509840557978
20
220.13160640234645
30
0
11
457.57850240713856
21
189.87996304054064
31
0
0
LINE
5
129
100
AcDbEntity
8
0
100
AcDbLine
10
282.14738572702316
20
233.52132282407453
30
0
11
328.13578330714705
21
189.87996304054064
31
0
0
LINE
5
130
100
AcDbEntity
8
0
100
AcDbLine
10
356.58213579150612
20
281.27956775742513
30
0
11
368.13578330714699
21
218.94166416075512
31
0
0
ENDSEC
0
SECTION
2
OBJECTS
0
DICTIONARY
5
C
100
AcDbDictionary
3
ACAD_GROUP
350
D
3
ACAD_MLINESTYLE
350
17
0
DICTIONARY
5
D
100
AcDbDictionary
0
DICTIONARY
5
1A
330
C
100
AcDbDictionary
0
DICTIONARY
5
17
100
AcDbDictionary
0
ENDSEC
0
EOF
